Ana səhifə

In The Midnight Hour Wilson Pickett Intro


Yüklə 13.44 Kb.
tarix18.07.2016
ölçüsü13.44 Kb.
In The Midnight Hour

Wilson Pickett

Intro: [drum roll]

D B A G


E A E A
Verse 1:

E A E A


I'm gonna wait til the midnight hour

E A E A


That's when my love comes tumblin' down


E A

-----------------|-----------------|

-----------------|-----------------|

-----------------|-----------------|

-----------------|--------2--------|

---------2-------|--0--/4----------|

---0-/4----------|-----------------|
B A

-----------------|-----------------|

-----------------|-----------------|

-----------------|-----------------|

-----------------|-----------------|

----6--9----6--9-|---4--7----4--7--|

-7--------7------|-5------5--------|

E A E A

I'm gonna wait 'til the midnight hour

E A E A

When there's no one else around

B A

I'm gonna take you girl and hold you



B A

And do all the things I told you

E A

In the midnight hour



E A E A

Yes I am, oh, yes, I am

D B

One more thing I wanna say right here


Verse 2:

I'm gonna wait 'til the stars come out

And see that twinkle in your eyes

I'm gonna wait 'til the midnight hour

That's when my love begins to shine

You're the only girl I know

That really loves me so

In the midnight hour

Oh, yeah, in the midnight hour

D B


Yeah! All right - play it for me one time now
Horn Break:

E A E A E D B

ba, ba, ba ba, ba, ba ba, ba, ba ba, ba, ba ba, ba, ba

E A E D E A B



ba, ba, ba ba, ba, ba ba, ba, ba, ba
Verse 1 (1st half)
Tag:

E A E

Just you and I..., etc.


Verilənlər bazası müəlliflik hüququ ilə müdafiə olunur ©atelim.com 2016
rəhbərliyinə müraciət